funics

Licks by Neck – Night in Tunisia

In A Night In Tunisia, Partitions, Scales, Technics on November 27, 2008 at 8:39 pm

A wonderfull site which will give you immediate access and knowledge to chords, scales, licks and solos for hundreds of major jazz standards, this includes Night in Tunisia.

With hopefully the courtasy of LickbyNeck, the tab for fingerstyle Night in Tunisia, Visit this site!

A Night In Tunisia played in the key of Dm

E|--------------------------------|--------------------------------|
B|--------------------------------|--------------------------------|
G|-- 6 8-- 6---------- 4----------|-- 6-- 8 6------------ 4--------|
D| 8-------- 8------ 7---- 7------|-- 8-------- 8---- 7------ 7----|
A| 6------------ 5 8---------- 8 6|---------------- 5---------- 8--|
E|--------------------------------|--------------------------------|

E|------ 8-- 6---- 4 5------------|------ 8-- 6---- 5--------------|
B|---- 6------ 6-- 6 6-- 6--------|---- 6------ 6-- 6--------------|
G|-- 6------------ 5 5-- 7--------|-- 6------------ 5--------------|
D| 8-------------------- 7---- 7--| 8------------------ 7 9 7------|
A| 6-------------- 5-------- 0----| 6-------------- 5 8-------- 8--|
E|-------------------- 5 7--------|--------------------------------|

E|------ 8-- 6---- 4 5------------| 5 6 5--------------------------|
B|---- 6------ 6-- 6 6-- 6--------| 8---- 8 4---- 3----------------|
G|-- 6------------ 5---- 7--------| 7------ 6-- 6 4----------------|
D| 8-------------------- 7---- 7--|-------- 5---- 3----------------|
A| 6-------------- 5-------- 0-- 7|-------------- 5----------------|
E|-------------------- 5 7--------|------ 5------------------------|

E|------ 8-- 6---- 4 5------------|------ 8-- 6---- 5--------------|
B|---- 6------ 6-- 6 6-- 6--------|---- 6------ 6-- 6--------------|
G|-- 6------------ 5 5-- 7--------|-- 6------------ 5--------------|
D| 8-------------------- 7---- 7--| 8------------------ 7 9 7------|
A| 6-------------- 5-------- 0----| 6-------------- 5 8-------- 8--|
E|-------------------- 5 7--------|--------------------------------|

E|------ 8-- 6---- 4 5------------| 5 6 5--------------------------|
B|---- 6------ 6-- 6 6-- 6--------| 8---- 8 4---- 3----------10--13|
G|-- 6------------ 5---- 7--------| 7------ 6-- 6 4----------------|
D| 8-------------------- 7---- 7--|-------- 5---- 3--------------13|
A| 6-------------- 5-------- 0-- 7|-------------- 5----------------|
E|-------------------- 5 7--------|------ 5------------------------|

E|--------------------1110--------|--------------------------------|
B|----13--10----------1010----1310|11----------10--11--------------|
G|12------12----1211--1111----1111|12----11--12--121010-- 9--------|
D|--13----10------10----------10--|1212--12-------- 8---- 8--------|
A|12----------------------------10|------10--------10------------10|
E|--------11------10--------10----|------------------ 9-- 8--------|

E|------------------ 9 8 8--------|--------------------------------|
B|11---- 8---------- 8-- 8--11-- 9|10------ 8------ 8---- 6--------|
G|10----10----10 9-- 9-- 9 8 9-- 9| 9----10--10-- 9 7-- 7 6--------|
D|1111-- 8 8-- 8 8----------11--11|--10--10--10--10 8-- 6 5--------|
A|-------------------------- 9-- 8|---------------- 7--------------|
E|------ 9 9 9-- 8----------------|-------------------- 6 5--------|

E|------ 8-- 6---- 4 5------------|------ 8-- 6---- 5--------------|
B|---- 6------ 6-- 6 6-- 6--------|---- 6------ 6-- 6--------------|
G|-- 6------------ 5 5-- 7--------|-- 6------------ 5--------------|
D| 8-------------------- 7---- 7--| 8------------------ 7 9 7------|
A| 6-------------- 5-------- 0----| 6-------------- 5 8-------- 8--|
E|-------------------- 5 7--------|--------------------------------|

E|------ 8-- 6---- 4 5------------| 5 6 5------------------------ 5|
B|---- 6------ 6-- 6 6-- 6--------| 8---- 8 4---- 3----------------|
G|-- 6------------ 5---- 7--------| 7------ 6-- 6 4----------------|
D| 8-------------------- 7---- 7--|-------- 5---- 3----------------|
A| 6-------------- 5-------- 0-- 7|-------------- 5----------------|
E|-------------------- 5 7--------|------ 5------------------------|

E|------ 5------ 5---- 5-- 5-- 5--|------ 5------ 5------ 5-- 5-- 5|
B|-- 8------ 8---- 8-- 8-- 8------|-- 6------ 6------ 6-- 6-- 6----|
G|---- 9------ 9---- 9---- 9------|---- 6------ 6------ 6 6-- 6----|
D|--------------------------------|--------------------------------|
A|---------------------------- 6--|------ 6-------- 6---- 6-- 6-- 5|
E| 0------ 0---- 0---------- 0----|--------------------------------|

E|-------- 5------ 5---- 5-- 5-- 5|-------- 5------ 5---- 5-- 5-- 5|
B|---- 6------ 6---- 6-- 6-- 6-- 6|---- 6------ 6---- 6-- 6-- 6-- 7|
G|------ 7------ 7---- 7 7-- 7-- 6|------ 6------ 6---- 6 6-- 6----|
D|------------------------------ 5|-------- 5------ 5---- 5-- 5-- 5|
A|-------- 5------ 5---- 5-- 5----|--------------------------------|
E|--------------------------------|--------------------------------|

E|-------- 5------ 5---- 5 5-- 5--|------ 5------ 5---- 5-- 5-- 8--|
B|---- 7------ 7---- 6-- 6 6------|-- 5------ 5---- 5-- 5-- 5-- 8--|
G| 7---- 7------ 7---- 7-- 7------|---- 6------ 6---- 6 6-- 6-- 7--|
D|-------- 5------ 5------ 5-- 5--|------ 5------ 5---- 5-- 5------|
A|--------------------------------|---------------------------- 8--|
E|--------------------------------|--------------------------------|
Advertisements

Leave a Reply

Fill in your details below or click an icon to log in:

WordPress.com Logo

You are commenting using your WordPress.com account. Log Out / Change )

Twitter picture

You are commenting using your Twitter account. Log Out / Change )

Facebook photo

You are commenting using your Facebook account. Log Out / Change )

Google+ photo

You are commenting using your Google+ account. Log Out / Change )

Connecting to %s

%d bloggers like this: